ISO-10303-21;
HEADER;
FILE_DESCRIPTION (( 'STEP AP203' ),
    '1' );
FILE_NAME ('BK7-BPBSC-12.7-900-1200.STEP',
    '2021-01-05T02:10:55',
    ( '' ),
    ( '' ),
    'SwSTEP 2.0',
    'SolidWorks 2020',
    '' );
FILE_SCHEMA (( 'CONFIG_CONTROL_DESIGN' ));
ENDSEC;

DATA;
#1 = CC_DESIGN_PERSON_AND_ORGANIZATION_ASSIGNMENT ( #273, #249, ( #77 ) ) ;
#2 = ORIENTED_EDGE ( 'NONE', *, *, #270, .T. ) ;
#3 = VERTEX_POINT ( 'NONE', #283 ) ;
#4 = AXIS2_PLACEMENT_3D ( 'NONE', #115, #146, #88 ) ;
#5 = DIRECTION ( 'NONE',  ( -2.220446049250312588E-16, 1.000000000000000000, 0.000000000000000000 ) ) ;
#6 = SECURITY_CLASSIFICATION ( '', '', #27 ) ;
#7 = ORIENTED_EDGE ( 'NONE', *, *, #171, .T. ) ;
#8 = PRODUCT_RELATED_PRODUCT_CATEGORY ( 'detail', '', ( #296 ) ) ;
#9 = LINE ( 'NONE', #230, #13 ) ;
#10 = ORIENTED_EDGE ( 'NONE', *, *, #280, .F. ) ;
#11 = APPROVAL_STATUS ( 'not_yet_approved' ) ;
#12 = LINE ( 'NONE', #210, #250 ) ;
#13 = VECTOR ( 'NONE', #159, 1000.000000000000000 ) ;
#14 = CARTESIAN_POINT ( 'NONE',  ( 0.000000000000000000, 0.000000000000000000, 0.000000000000000000 ) ) ;
#15 = PLANE ( 'NONE',  #4 ) ;
#16 = APPROVAL ( #282, 'UNSPECIFIED' ) ;
#17 = DIRECTION ( 'NONE',  ( -0.000000000000000000, 0.000000000000000000, 1.000000000000000000 ) ) ;
#18 = FACE_OUTER_BOUND ( 'NONE', #134, .T. ) ;
#19 = PERSON_AND_ORGANIZATION ( #224, #214 ) ;
#20 = DIRECTION ( 'NONE',  ( -0.7071067811865475727, -0.7071067811865475727, 0.000000000000000000 ) ) ;
#21 = VECTOR ( 'NONE', #194, 1000.000000000000000 ) ;
#22 = APPROVAL_PERSON_ORGANIZATION ( #125, #131, #223 ) ;
#23 = DATE_TIME_ROLE ( 'creation_date' ) ;
#24 = DIRECTION ( 'NONE',  ( 1.000000000000000000, -2.903408047666378392E-16, 0.000000000000000000 ) ) ;
#25 = CARTESIAN_POINT ( 'NONE',  ( -6.349999999999998757, -6.349999999999997868, 6.349999999999999645 ) ) ;
#26 = AXIS2_PLACEMENT_3D ( 'NONE', #44, #67, #93 ) ;
#27 = SECURITY_CLASSIFICATION_LEVEL ( 'unclassified' ) ;
#28 = ADVANCED_FACE ( 'NONE', ( #305 ), #158, .T. ) ;
#29 = VERTEX_POINT ( 'NONE', #161 ) ;
#30 = ORIENTED_EDGE ( 'NONE', *, *, #199, .F. ) ;
#31 = PLANE ( 'NONE',  #127 ) ;
#32 = ADVANCED_FACE ( 'NONE', ( #257 ), #84, .T. ) ;
#33 = ORIENTED_EDGE ( 'NONE', *, *, #103, .F. ) ;
#34 = CARTESIAN_POINT ( 'NONE',  ( 0.000000000000000000, 0.000000000000000000, -6.349999999999999645 ) ) ;
#35 = CARTESIAN_POINT ( 'NONE',  ( 6.349999999999996980, 6.349999999999996980, 6.349999999999999645 ) ) ;
#36 = UNCERTAINTY_MEASURE_WITH_UNIT (LENGTH_MEASURE( 1.000000000000000082E-05 ), #190, 'distance_accuracy_value', 'NONE');
#37 = CARTESIAN_POINT ( 'NONE',  ( 6.349999999999998757, 6.349999999999998757, -6.349999999999999645 ) ) ;
#38 = ORIENTED_EDGE ( 'NONE', *, *, #100, .F. ) ;
#39 = DIRECTION ( 'NONE',  ( -0.000000000000000000, -0.000000000000000000, -1.000000000000000000 ) ) ;
#40 = PLANE ( 'NONE',  #272 ) ;
#41 = LINE ( 'NONE', #143, #286 ) ;
#42 = CALENDAR_DATE ( 2021, 5, 1 ) ;
#43 = CC_DESIGN_PERSON_AND_ORGANIZATION_ASSIGNMENT ( #19, #70, ( #241 ) ) ;
#44 = CARTESIAN_POINT ( 'NONE',  ( 6.349999999999998757, 6.349999999999998757, 6.349999999999999645 ) ) ;
#45 = LOCAL_TIME ( 10, 10, 55.00000000000000000, #170 ) ;
#46 = CARTESIAN_POINT ( 'NONE',  ( 6.349999999999999645, -6.350000000000000533, -6.349999999999999645 ) ) ;
#47 = PLANE ( 'NONE',  #162 ) ;
#48 = EDGE_CURVE ( 'NONE', #152, #208, #82, .T. ) ;
#49 = SHAPE_DEFINITION_REPRESENTATION ( #197, #204 ) ;
#50 = MANIFOLD_SOLID_BREP ( 'Í¹Ì¨-À', #148 ) ;
#51 = VECTOR ( 'NONE', #284, 1000.000000000000000 ) ;
#52 = LOCAL_TIME ( 10, 10, 55.00000000000000000, #318 ) ;
#53 = ORIENTED_EDGE ( 'NONE', *, *, #237, .F. ) ;
#54 = MANIFOLD_SOLID_BREP ( '¾µÏ', #195 ) ;
#55 = APPLICATION_CONTEXT ( 'configuration controlled 3d designs of mechanical parts and assemblies' ) ;
#56 = ORIENTED_EDGE ( 'NONE', *, *, #100, .T. ) ;
#57 = ORIENTED_EDGE ( 'NONE', *, *, #60, .T. ) ;
#58 = ORIENTED_EDGE ( 'NONE', *, *, #216, .F. ) ;
#59 = FACE_OUTER_BOUND ( 'NONE', #105, .T. ) ;
#60 = EDGE_CURVE ( 'NONE', #3, #179, #155, .T. ) ;
#61 = DIRECTION ( 'NONE',  ( 0.000000000000000000, 0.000000000000000000, 1.000000000000000000 ) ) ;
#62 = DIRECTION ( 'NONE',  ( 0.000000000000000000, 0.000000000000000000, 1.000000000000000000 ) ) ;
#63 = DATE_AND_TIME ( #193, #102 ) ;
#64 = FACE_OUTER_BOUND ( 'NONE', #106, .T. ) ;
#65 = PLANE ( 'NONE',  #260 ) ;
#66 =( NAMED_UNIT ( * ) PLANE_ANGLE_UNIT ( ) SI_UNIT ( $, .RADIAN. ) );
#67 = DIRECTION ( 'NONE',  ( -1.000000000000000000, -6.829619984160658046E-17, 0.000000000000000000 ) ) ;
#68 = EDGE_CURVE ( 'NONE', #29, #208, #107, .T. ) ;
#69 = CARTESIAN_POINT ( 'NONE',  ( 6.349999999999998757, 6.349999999999998757, -6.349999999999999645 ) ) ;
#70 = PERSON_AND_ORGANIZATION_ROLE ( 'creator' ) ;
#71 = DIRECTION ( 'NONE',  ( -0.7071067811865475727, -0.7071067811865475727, 0.000000000000000000 ) ) ;
#72 = CC_DESIGN_SECURITY_CLASSIFICATION ( #6, ( #77 ) ) ;
#73 = CARTESIAN_POINT ( 'NONE',  ( -6.349999999999999645, -6.350000000000000533, 6.349999999999999645 ) ) ;
#74 = ADVANCED_FACE ( 'NONE', ( #182 ), #256, .F. ) ;
#75 = AXIS2_PLACEMENT_3D ( 'NONE', #304, #61, #301 ) ;
#76 = DATE_AND_TIME ( #147, #261 ) ;
#77 = PRODUCT_DEFINITION_FORMATION_WITH_SPECIFIED_SOURCE ( 'ANY', '', #296, .NOT_KNOWN. ) ;
#78 = EDGE_LOOP ( 'NONE', ( #58, #130, #38 ) ) ;
#79 = CARTESIAN_POINT ( 'NONE',  ( -6.350000000000002309, 6.350000000000001421, 6.349999999999999645 ) ) ;
#80 = ORIENTED_EDGE ( 'NONE', *, *, #248, .T. ) ;
#81 = CC_DESIGN_DATE_AND_TIME_ASSIGNMENT ( #243, #23, ( #241 ) ) ;
#82 = LINE ( 'NONE', #79, #91 ) ;
#83 = CARTESIAN_POINT ( 'NONE',  ( 0.000000000000000000, 0.000000000000000000, 6.349999999999999645 ) ) ;
#84 = PLANE ( 'NONE',  #75 ) ;
#85 = CALENDAR_DATE ( 2021, 5, 1 ) ;
#86 = ORIENTED_EDGE ( 'NONE', *, *, #111, .T. ) ;
#87 = APPLICATION_PROTOCOL_DEFINITION ( 'international standard', 'config_control_design', 1994, #308 ) ;
#88 = DIRECTION ( 'NONE',  ( 0.7071067811865474617, 0.7071067811865474617, 0.000000000000000000 ) ) ;
#89 = MECHANICAL_CONTEXT ( 'NONE', #308, 'mechanical' ) ;
#90 = DIRECTION ( 'NONE',  ( 1.000000000000000000, 0.000000000000000000, 0.000000000000000000 ) ) ;
#91 = VECTOR ( 'NONE', #153, 1000.000000000000000 ) ;
#92 = DIRECTION ( 'NONE',  ( 1.000000000000000000, 0.000000000000000000, 0.000000000000000000 ) ) ;
#93 = DIRECTION ( 'NONE',  ( 6.829619984160658046E-17, -1.000000000000000000, 0.000000000000000000 ) ) ;
#94 = DIRECTION ( 'NONE',  ( 0.000000000000000000, 0.000000000000000000, 1.000000000000000000 ) ) ;
#95 = CARTESIAN_POINT ( 'NONE',  ( 6.349999999999996980, 6.349999999999996980, -6.349999999999999645 ) ) ;
#96 = APPROVAL_STATUS ( 'not_yet_approved' ) ;
#97 = ADVANCED_FACE ( 'NONE', ( #59 ), #31, .F. ) ;
#98 = LINE ( 'NONE', #73, #188 ) ;
#99 =( GEOMETRIC_REPRESENTATION_CONTEXT ( 3 ) GLOBAL_UNCERTAINTY_ASSIGNED_CONTEXT ( ( #36 ) ) GLOBAL_UNIT_ASSIGNED_CONTEXT ( ( #190, #66, #258 ) ) REPRESENTATION_CONTEXT ( 'NONE', 'WORKASPACE' ) );
#100 = EDGE_CURVE ( 'NONE', #238, #152, #9, .T. ) ;
#101 = PERSON_AND_ORGANIZATION ( #224, #214 ) ;
#102 = LOCAL_TIME ( 10, 10, 55.00000000000000000, #317 ) ;
#103 = EDGE_CURVE ( 'NONE', #201, #104, #12, .T. ) ;
#104 = VERTEX_POINT ( 'NONE', #95 ) ;
#105 = EDGE_LOOP ( 'NONE', ( #126, #33, #251, #222 ) ) ;
#106 = EDGE_LOOP ( 'NONE', ( #279, #254, #229 ) ) ;
#107 = LINE ( 'NONE', #252, #149 ) ;
#108 = VERTEX_POINT ( 'NONE', #219 ) ;
#109 = ORIENTED_EDGE ( 'NONE', *, *, #48, .T. ) ;
#110 = DESIGN_CONTEXT ( 'detailed design', #55, 'design' ) ;
#111 = EDGE_CURVE ( 'NONE', #104, #29, #242, .T. ) ;
#112 = APPROVAL_ROLE ( '' ) ;
#113 = VECTOR ( 'NONE', #235, 1000.000000000000000 ) ;
#114 = VERTEX_POINT ( 'NONE', #69 ) ;
#115 = CARTESIAN_POINT ( 'NONE',  ( 6.349999999999998757, 6.349999999999998757, 6.349999999999999645 ) ) ;
#116 = CARTESIAN_POINT ( 'NONE',  ( -6.349999999999999645, -6.350000000000000533, 6.349999999999999645 ) ) ;
#117 = DIRECTION ( 'NONE',  ( -0.7071067811865474617, -0.7071067811865474617, 0.000000000000000000 ) ) ;
#118 = EDGE_CURVE ( 'NONE', #183, #205, #239, .T. ) ;
#119 = APPROVAL_PERSON_ORGANIZATION ( #209, #253, #112 ) ;
#120 = LINE ( 'NONE', #25, #178 ) ;
#121 = PERSON_AND_ORGANIZATION ( #224, #214 ) ;
#122 = CARTESIAN_POINT ( 'NONE',  ( -6.349999999999998757, -6.349999999999997868, 6.349999999999999645 ) ) ;
#123 = PERSON_AND_ORGANIZATION_ROLE ( 'creator' ) ;
#124 = DIRECTION ( 'NONE',  ( 0.000000000000000000, 1.000000000000000000, 0.000000000000000000 ) ) ;
#125 = PERSON_AND_ORGANIZATION ( #224, #214 ) ;
#126 = ORIENTED_EDGE ( 'NONE', *, *, #111, .F. ) ;
#127 = AXIS2_PLACEMENT_3D ( 'NONE', #35, #185, #281 ) ;
#128 = CALENDAR_DATE ( 2021, 5, 1 ) ;
#129 = DATE_TIME_ROLE ( 'classification_date' ) ;
#130 = ORIENTED_EDGE ( 'NONE', *, *, #233, .F. ) ;
#131 = APPROVAL ( #96, 'UNSPECIFIED' ) ;
#132 = EDGE_LOOP ( 'NONE', ( #203, #202, #10, #2 ) ) ;
#133 = APPROVAL_PERSON_ORGANIZATION ( #121, #16, #218 ) ;
#134 = EDGE_LOOP ( 'NONE', ( #57, #206, #259, #275 ) ) ;
#135 = EDGE_LOOP ( 'NONE', ( #86, #302, #139 ) ) ;
#136 = EDGE_CURVE ( 'NONE', #205, #3, #212, .T. ) ;
#137 = ORIENTED_EDGE ( 'NONE', *, *, #136, .F. ) ;
#138 = LINE ( 'NONE', #289, #231 ) ;
#139 = ORIENTED_EDGE ( 'NONE', *, *, #237, .T. ) ;
#140 = ORIENTED_EDGE ( 'NONE', *, *, #280, .T. ) ;
#141 = LINE ( 'NONE', #319, #274 ) ;
#142 = DATE_AND_TIME ( #85, #45 ) ;
#143 = CARTESIAN_POINT ( 'NONE',  ( 6.349999999999998757, 6.349999999999998757, 6.349999999999999645 ) ) ;
#144 = LINE ( 'NONE', #245, #255 ) ;
#145 = DIRECTION ( 'NONE',  ( -1.000000000000000000, 2.903408047666378392E-16, 0.000000000000000000 ) ) ;
#146 = DIRECTION ( 'NONE',  ( 0.7071067811865475727, -0.7071067811865475727, 0.000000000000000000 ) ) ;
#147 = CALENDAR_DATE ( 2021, 5, 1 ) ;
#148 = CLOSED_SHELL ( 'NONE', ( #192, #175, #228, #28, #312 ) ) ;
#149 = VECTOR ( 'NONE', #5, 1000.000000000000000 ) ;
#150 = EDGE_LOOP ( 'NONE', ( #80, #137, #180, #7 ) ) ;
#151 = CC_DESIGN_PERSON_AND_ORGANIZATION_ASSIGNMENT ( #295, #220, ( #6 ) ) ;
#152 = VERTEX_POINT ( 'NONE', #169 ) ;
#153 = DIRECTION ( 'NONE',  ( 0.000000000000000000, 0.000000000000000000, -1.000000000000000000 ) ) ;
#154 = EDGE_LOOP ( 'NONE', ( #53, #181, #277, #227 ) ) ;
#155 = LINE ( 'NONE', #303, #306 ) ;
#156 = VECTOR ( 'NONE', #174, 1000.000000000000114 ) ;
#157 = ADVANCED_FACE ( 'NONE', ( #172 ), #247, .F. ) ;
#158 = PLANE ( 'NONE',  #321 ) ;
#159 = DIRECTION ( 'NONE',  ( -2.220446049250312588E-16, 1.000000000000000000, 0.000000000000000000 ) ) ;
#160 = CARTESIAN_POINT ( 'NONE',  ( 6.349999999999999645, -6.350000000000000533, 6.349999999999999645 ) ) ;
#161 = CARTESIAN_POINT ( 'NONE',  ( -6.349999999999998757, -6.349999999999997868, -6.349999999999999645 ) ) ;
#162 = AXIS2_PLACEMENT_3D ( 'NONE', #266, #285, #145 ) ;
#163 = CC_DESIGN_APPROVAL ( #131, ( #6 ) ) ;
#164 = CARTESIAN_POINT ( 'NONE',  ( 6.349999999999998757, 6.349999999999998757, 6.349999999999999645 ) ) ;
#165 = CC_DESIGN_DATE_AND_TIME_ASSIGNMENT ( #246, #129, ( #6 ) ) ;
#166 = PERSON_AND_ORGANIZATION_ROLE ( 'design_owner' ) ;
#167 = CARTESIAN_POINT ( 'NONE',  ( -6.349999999999998757, -6.349999999999997868, 6.349999999999999645 ) ) ;
#168 = LINE ( 'NONE', #311, #113 ) ;
#169 = CARTESIAN_POINT ( 'NONE',  ( -6.350000000000002309, 6.350000000000001421, 6.349999999999999645 ) ) ;
#170 = COORDINATED_UNIVERSAL_TIME_OFFSET ( 8, 0, .AHEAD. ) ;
#171 = EDGE_CURVE ( 'NONE', #183, #114, #41, .T. ) ;
#172 = FACE_OUTER_BOUND ( 'NONE', #276, .T. ) ;
#173 = APPROVAL_DATE_TIME ( #76, #131 ) ;
#174 = DIRECTION ( 'NONE',  ( -0.7071067811865474617, -0.7071067811865474617, 0.000000000000000000 ) ) ;
#175 = ADVANCED_FACE ( 'NONE', ( #18 ), #65, .F. ) ;
#176 = ADVANCED_FACE ( 'NONE', ( #269 ), #47, .F. ) ;
#177 = EDGE_LOOP ( 'NONE', ( #300, #299, #140 ) ) ;
#178 = VECTOR ( 'NONE', #217, 1000.000000000000000 ) ;
#179 = VERTEX_POINT ( 'NONE', #46 ) ;
#180 = ORIENTED_EDGE ( 'NONE', *, *, #118, .F. ) ;
#181 = ORIENTED_EDGE ( 'NONE', *, *, #48, .F. ) ;
#182 = FACE_OUTER_BOUND ( 'NONE', #135, .T. ) ;
#183 = VERTEX_POINT ( 'NONE', #164 ) ;
#184 = VECTOR ( 'NONE', #20, 999.9999999999998863 ) ;
#185 = DIRECTION ( 'NONE',  ( -0.7071067811865475727, 0.7071067811865475727, 0.000000000000000000 ) ) ;
#186 = DIRECTION ( 'NONE',  ( 0.000000000000000000, 0.000000000000000000, -1.000000000000000000 ) ) ;
#187 = DIRECTION ( 'NONE',  ( -0.000000000000000000, -0.000000000000000000, -1.000000000000000000 ) ) ;
#188 = VECTOR ( 'NONE', #90, 1000.000000000000000 ) ;
#189 = FACE_OUTER_BOUND ( 'NONE', #132, .T. ) ;
#190 =( LENGTH_UNIT ( ) NAMED_UNIT ( * ) SI_UNIT ( .MILLI., .METRE. ) );
#191 = LINE ( 'NONE', #290, #21 ) ;
#192 = ADVANCED_FACE ( 'NONE', ( #294 ), #15, .F. ) ;
#193 = CALENDAR_DATE ( 2021, 5, 1 ) ;
#194 = DIRECTION ( 'NONE',  ( 1.000000000000000000, -2.903408047666378392E-16, 0.000000000000000000 ) ) ;
#195 = CLOSED_SHELL ( 'NONE', ( #97, #157, #176, #32, #74 ) ) ;
#196 = CARTESIAN_POINT ( 'NONE',  ( 6.349999999999998757, 6.349999999999998757, 6.349999999999999645 ) ) ;
#197 = PRODUCT_DEFINITION_SHAPE ( 'NONE', 'NONE',  #241 ) ;
#198 = COORDINATED_UNIVERSAL_TIME_OFFSET ( 8, 0, .AHEAD. ) ;
#199 = EDGE_CURVE ( 'NONE', #238, #29, #120, .T. ) ;
#200 = VECTOR ( 'NONE', #117, 1000.000000000000114 ) ;
#201 = VERTEX_POINT ( 'NONE', #316 ) ;
#202 = ORIENTED_EDGE ( 'NONE', *, *, #171, .F. ) ;
#203 = ORIENTED_EDGE ( 'NONE', *, *, #293, .T. ) ;
#204 = ADVANCED_BREP_SHAPE_REPRESENTATION ( 'BK7-BPBSC-12.7-900-1200', ( #50, #54, #320 ), #99 ) ;
#205 = VERTEX_POINT ( 'NONE', #116 ) ;
#206 = ORIENTED_EDGE ( 'NONE', *, *, #270, .F. ) ;
#207 = DIRECTION ( 'NONE',  ( -0.000000000000000000, 0.000000000000000000, 1.000000000000000000 ) ) ;
#208 = VERTEX_POINT ( 'NONE', #262 ) ;
#209 = PERSON_AND_ORGANIZATION ( #224, #214 ) ;
#210 = CARTESIAN_POINT ( 'NONE',  ( 6.349999999999996980, 6.349999999999996980, 6.349999999999999645 ) ) ;
#211 = CC_DESIGN_PERSON_AND_ORGANIZATION_ASSIGNMENT ( #101, #123, ( #77 ) ) ;
#212 = LINE ( 'NONE', #271, #314 ) ;
#213 = DIRECTION ( 'NONE',  ( -6.829619984160658046E-17, 1.000000000000000000, -0.000000000000000000 ) ) ;
#214 = ORGANIZATION ( 'UNSPECIFIED', 'UNSPECIFIED', '' ) ;
#215 = AXIS2_PLACEMENT_3D ( 'NONE', #34, #62, #278 ) ;
#216 = EDGE_CURVE ( 'NONE', #201, #238, #141, .T. ) ;
#217 = DIRECTION ( 'NONE',  ( 0.000000000000000000, 0.000000000000000000, -1.000000000000000000 ) ) ;
#218 = APPROVAL_ROLE ( '' ) ;
#219 = CARTESIAN_POINT ( 'NONE',  ( 6.349999999999999645, -6.350000000000000533, 6.349999999999999645 ) ) ;
#220 = PERSON_AND_ORGANIZATION_ROLE ( 'classification_officer' ) ;
#221 = DIRECTION ( 'NONE',  ( 0.000000000000000000, 0.000000000000000000, 1.000000000000000000 ) ) ;
#222 = ORIENTED_EDGE ( 'NONE', *, *, #199, .T. ) ;
#223 = APPROVAL_ROLE ( '' ) ;
#224 = PERSON ( 'UNSPECIFIED', 'UNSPECIFIED', 'UNSPECIFIED', ('UNSPECIFIED'), ('UNSPECIFIED'), ('UNSPECIFIED') ) ;
#225 = CC_DESIGN_APPROVAL ( #16, ( #77 ) ) ;
#226 = EDGE_CURVE ( 'NONE', #205, #108, #98, .T. ) ;
#227 = ORIENTED_EDGE ( 'NONE', *, *, #103, .T. ) ;
#228 = ADVANCED_FACE ( 'NONE', ( #189 ), #288, .F. ) ;
#229 = ORIENTED_EDGE ( 'NONE', *, *, #60, .F. ) ;
#230 = CARTESIAN_POINT ( 'NONE',  ( -6.349999999999998757, -6.349999999999997868, 6.349999999999999645 ) ) ;
#231 = VECTOR ( 'NONE', #213, 1000.000000000000000 ) ;
#232 = DIRECTION ( 'NONE',  ( 1.000000000000000000, 0.000000000000000000, 0.000000000000000000 ) ) ;
#233 = EDGE_CURVE ( 'NONE', #152, #201, #191, .T. ) ;
#234 = ORIENTED_EDGE ( 'NONE', *, *, #68, .F. ) ;
#235 = DIRECTION ( 'NONE',  ( -6.829619984160658046E-17, 1.000000000000000000, -0.000000000000000000 ) ) ;
#236 = DIRECTION ( 'NONE',  ( 1.000000000000000000, 0.000000000000000000, 0.000000000000000000 ) ) ;
#237 = EDGE_CURVE ( 'NONE', #208, #104, #144, .T. ) ;
#238 = VERTEX_POINT ( 'NONE', #122 ) ;
#239 = LINE ( 'NONE', #196, #156 ) ;
#240 = APPROVAL_DATE_TIME ( #142, #253 ) ;
#241 = PRODUCT_DEFINITION ( 'UNKNOWN', '', #77, #110 ) ;
#242 = LINE ( 'NONE', #264, #184 ) ;
#243 = DATE_AND_TIME ( #42, #244 ) ;
#244 = LOCAL_TIME ( 10, 10, 55.00000000000000000, #315 ) ;
#245 = CARTESIAN_POINT ( 'NONE',  ( 6.349999999999996980, 6.349999999999996980, -6.349999999999999645 ) ) ;
#246 = DATE_AND_TIME ( #128, #52 ) ;
#247 = PLANE ( 'NONE',  #268 ) ;
#248 = EDGE_CURVE ( 'NONE', #114, #3, #287, .T. ) ;
#249 = PERSON_AND_ORGANIZATION_ROLE ( 'design_supplier' ) ;
#250 = VECTOR ( 'NONE', #186, 1000.000000000000000 ) ;
#251 = ORIENTED_EDGE ( 'NONE', *, *, #216, .T. ) ;
#252 = CARTESIAN_POINT ( 'NONE',  ( -6.349999999999998757, -6.349999999999997868, -6.349999999999999645 ) ) ;
#253 = APPROVAL ( #11, 'UNSPECIFIED' ) ;
#254 = ORIENTED_EDGE ( 'NONE', *, *, #293, .F. ) ;
#255 = VECTOR ( 'NONE', #24, 1000.000000000000000 ) ;
#256 = PLANE ( 'NONE',  #215 ) ;
#257 = FACE_OUTER_BOUND ( 'NONE', #78, .T. ) ;
#258 =( NAMED_UNIT ( * ) SI_UNIT ( $, .STERADIAN. ) SOLID_ANGLE_UNIT ( ) );
#259 = ORIENTED_EDGE ( 'NONE', *, *, #226, .F. ) ;
#260 = AXIS2_PLACEMENT_3D ( 'NONE', #292, #124, #310 ) ;
#261 = LOCAL_TIME ( 10, 10, 55.00000000000000000, #198 ) ;
#262 = CARTESIAN_POINT ( 'NONE',  ( -6.350000000000002309, 6.350000000000001421, -6.349999999999999645 ) ) ;
#263 = APPLICATION_PROTOCOL_DEFINITION ( 'international standard', 'config_control_design', 1994, #55 ) ;
#264 = CARTESIAN_POINT ( 'NONE',  ( 6.349999999999996980, 6.349999999999996980, -6.349999999999999645 ) ) ;
#265 = PERSON_AND_ORGANIZATION ( #224, #214 ) ;
#266 = CARTESIAN_POINT ( 'NONE',  ( 6.349999999999996980, 6.349999999999996980, 6.349999999999999645 ) ) ;
#267 = APPROVAL_DATE_TIME ( #63, #16 ) ;
#268 = AXIS2_PLACEMENT_3D ( 'NONE', #167, #313, #221 ) ;
#269 = FACE_OUTER_BOUND ( 'NONE', #154, .T. ) ;
#270 = EDGE_CURVE ( 'NONE', #108, #179, #291, .T. ) ;
#271 = CARTESIAN_POINT ( 'NONE',  ( -6.349999999999999645, -6.350000000000000533, 6.349999999999999645 ) ) ;
#272 = AXIS2_PLACEMENT_3D ( 'NONE', #307, #17, #92 ) ;
#273 = PERSON_AND_ORGANIZATION ( #224, #214 ) ;
#274 = VECTOR ( 'NONE', #71, 999.9999999999998863 ) ;
#275 = ORIENTED_EDGE ( 'NONE', *, *, #136, .T. ) ;
#276 = EDGE_LOOP ( 'NONE', ( #234, #30, #56, #109 ) ) ;
#277 = ORIENTED_EDGE ( 'NONE', *, *, #233, .T. ) ;
#278 = DIRECTION ( 'NONE',  ( -2.220446049250312588E-16, 1.000000000000000000, 0.000000000000000000 ) ) ;
#279 = ORIENTED_EDGE ( 'NONE', *, *, #248, .F. ) ;
#280 = EDGE_CURVE ( 'NONE', #108, #183, #168, .T. ) ;
#281 = DIRECTION ( 'NONE',  ( 0.7071067811865475727, 0.7071067811865475727, 0.000000000000000000 ) ) ;
#282 = APPROVAL_STATUS ( 'not_yet_approved' ) ;
#283 = CARTESIAN_POINT ( 'NONE',  ( -6.349999999999999645, -6.350000000000000533, -6.349999999999999645 ) ) ;
#284 = DIRECTION ( 'NONE',  ( -0.000000000000000000, -0.000000000000000000, -1.000000000000000000 ) ) ;
#285 = DIRECTION ( 'NONE',  ( -2.903408047666378392E-16, -1.000000000000000000, 0.000000000000000000 ) ) ;
#286 = VECTOR ( 'NONE', #187, 1000.000000000000000 ) ;
#287 = LINE ( 'NONE', #37, #200 ) ;
#288 = PLANE ( 'NONE',  #26 ) ;
#289 = CARTESIAN_POINT ( 'NONE',  ( 6.349999999999998757, 6.349999999999998757, -6.349999999999999645 ) ) ;
#290 = CARTESIAN_POINT ( 'NONE',  ( 6.349999999999996980, 6.349999999999996980, 6.349999999999999645 ) ) ;
#291 = LINE ( 'NONE', #160, #51 ) ;
#292 = CARTESIAN_POINT ( 'NONE',  ( -6.349999999999999645, -6.350000000000000533, 6.349999999999999645 ) ) ;
#293 = EDGE_CURVE ( 'NONE', #179, #114, #138, .T. ) ;
#294 = FACE_OUTER_BOUND ( 'NONE', #150, .T. ) ;
#295 = PERSON_AND_ORGANIZATION ( #224, #214 ) ;
#296 = PRODUCT ( 'BK7-BPBSC-12.7-900-1200', 'BK7-BPBSC-12.7-900-1200', '', ( #89 ) ) ;
#297 = CC_DESIGN_PERSON_AND_ORGANIZATION_ASSIGNMENT ( #265, #166, ( #296 ) ) ;
#298 = CC_DESIGN_APPROVAL ( #253, ( #241 ) ) ;
#299 = ORIENTED_EDGE ( 'NONE', *, *, #226, .T. ) ;
#300 = ORIENTED_EDGE ( 'NONE', *, *, #118, .T. ) ;
#301 = DIRECTION ( 'NONE',  ( -2.220446049250312588E-16, 1.000000000000000000, 0.000000000000000000 ) ) ;
#302 = ORIENTED_EDGE ( 'NONE', *, *, #68, .T. ) ;
#303 = CARTESIAN_POINT ( 'NONE',  ( -6.349999999999999645, -6.350000000000000533, -6.349999999999999645 ) ) ;
#304 = CARTESIAN_POINT ( 'NONE',  ( 0.000000000000000000, 0.000000000000000000, 6.349999999999999645 ) ) ;
#305 = FACE_OUTER_BOUND ( 'NONE', #177, .T. ) ;
#306 = VECTOR ( 'NONE', #232, 1000.000000000000000 ) ;
#307 = CARTESIAN_POINT ( 'NONE',  ( 0.000000000000000000, 0.000000000000000000, -6.349999999999999645 ) ) ;
#308 = APPLICATION_CONTEXT ( 'configuration controlled 3d designs of mechanical parts and assemblies' ) ;
#309 = DIRECTION ( 'NONE',  ( 1.000000000000000000, 0.000000000000000000, 0.000000000000000000 ) ) ;
#310 = DIRECTION ( 'NONE',  ( 0.000000000000000000, -0.000000000000000000, 1.000000000000000000 ) ) ;
#311 = CARTESIAN_POINT ( 'NONE',  ( 6.349999999999998757, 6.349999999999998757, 6.349999999999999645 ) ) ;
#312 = ADVANCED_FACE ( 'NONE', ( #64 ), #40, .F. ) ;
#313 = DIRECTION ( 'NONE',  ( 1.000000000000000000, -2.220446049250312588E-16, 0.000000000000000000 ) ) ;
#314 = VECTOR ( 'NONE', #39, 1000.000000000000000 ) ;
#315 = COORDINATED_UNIVERSAL_TIME_OFFSET ( 8, 0, .AHEAD. ) ;
#316 = CARTESIAN_POINT ( 'NONE',  ( 6.349999999999996980, 6.349999999999996980, 6.349999999999999645 ) ) ;
#317 = COORDINATED_UNIVERSAL_TIME_OFFSET ( 8, 0, .AHEAD. ) ;
#318 = COORDINATED_UNIVERSAL_TIME_OFFSET ( 8, 0, .AHEAD. ) ;
#319 = CARTESIAN_POINT ( 'NONE',  ( 6.349999999999996980, 6.349999999999996980, 6.349999999999999645 ) ) ;
#320 = AXIS2_PLACEMENT_3D ( 'NONE', #14, #94, #309 ) ;
#321 = AXIS2_PLACEMENT_3D ( 'NONE', #83, #207, #236 ) ;
ENDSEC;
END-ISO-10303-21;
